I give you my heart that nothing in this world compare to you..♡

Hola bienvenido a mi perfil :v
Hello, welcome to my profile :v

Soy Kas, tengo 16 cumplo años el 27 de enero c:
Me gusta...
Rock, metal, blues entre otras pocas cosas, me encanta dibujar y jugar basket, toco un poco guitarra, me gusta el anime, manga etc c:

Ya no se que poner ._. 

.~ Ohh L o v e m e t w o t i m e s b a b y <3 
                         Love me twice today ~


B L I N K 1 8 2 ♡
----------------------00000000 0000--------------
--------------00000000000000 00000000------
----------000----------------- -00----0------0-000------
-------00------00---------000- ----00-------------00----
----00-----------00----00----- ----00---------------000--
---00-------------00-00------- -----00----------000--00--
--00--------------0000-------- ------00----000---------00
-00----00-----00------00------ -------000---------------00
00-----00--0-------------00--- -----00-00---------------00
00-----00--------------------- ----00-------00------------00
00------00-------------------- --0-----------000----------00
-00-------00------------------ -------------00------------0-
---00-------00---------------- ------------00-----------00
----00---------00------------- -----------00----------00-
-------00----------00--------- ------000-----------00---
----------000---------00000000 000---------000----
---------------000------------ ------------0000-------
-------------------00000000000 0000000-----------
------------------------000000 0000---------------- 

Statistics

  • Times In the Spotlight: 0
  • Badges: 3
  • Gold Blingees: 0
  • Silver Blingees: 1
  • Stamp Contributions: 0
  • Postcard Contributions: 0
 

My Competition Entries

Free!
View More
 
 
 
 
 

Comments

wua8

wua8 says:

1475 days ago
Hǟքքʏ Hǟʟʟօաɛɛռ!
{http://bln.gs/b/28npps}
nermai

nermai says:

1791 days ago
Hey!!!

This is for you! / Esto es para ti! :D 
http://bln.gs/b/28b760
I hope you like it!! / Espero que te guste!!
Merry Christmas!!! / Feliz Navidad!!! :D
kisses!!!
wua8

wua8 says:

1824 days ago
cool...
♥ρℓєαѕє נσιη му gяσυρ!♥
•*¨*•♫♪gℓαмσяσυѕ ⓐⓝⓘⓜⓔ•*¨*•♫♪
http://blingee.com/group/88770

Would you like to comment?

Join Blingee (for a free account),
Login (if you are already a member).

My Gifts

IamRocker doesn't have any Blingee Gifts. Be the first to give IamRocker a Gift!

My Challenge Trophies

IamRocker doesn't have any Challenge Trophies. Find or Create a Challenge now!